Chords for small details Sondre Lerche

Sondre Lark I know i know lyrics

Chords:
Cm7 Am7 F G D7 Dm7 Dm9 Dm C A7
e | ---------- 0 --- 0--2 ---- 1 ---- 1 ---- 1--0 ----- |
B | -0 --- 1 ---- 1 - \ - 3--1 ---- 1 ---- 2 ---- 3--1--2-- |
G | -0 --- 0 ---- 2 - \ - 4--2 ---- 2 ---- 2 ---- 2--0--0-- |
D | -2 --- 2 ---- 3 - \ - 5--0 ---- 0 ---- 0 ---- 0--2--2-- |
A | -3 --- 0 ---- 3 - \ - 5 -------------------- 3--0-- |
E | ----------------------------------------- |


Intro: Cm7, Am7, Cm7, Am7, F, G, F, G

Cm7 Am7 Cm7 Am7 F G
Dawn got up pretty early I sing songs
F G Cm7 Am7
I try to get attention get it wrong
Cm7 Am7 F G
She knows I \ 'm never lonely she goes on
F G
and she says \ "why don \ 't you come baby \"

Am7 D7 F G
Hey now, I know we could beat them
Am7 D7
Oh, I, I know, I know
F G
We could be like that sweet
Am7 D7 F G
infant
Am7 D7 F G
Oh baby

Cm7 Am7 Cm7 Am7 F G
A beach trying to unfold, but it \ 's all bleached
F G Cm7 Am7
compared to how things used to be
Cm7 Am7 F G
I said I \ 'd catch her now she \' s out of reach
F G
Still she says \ "why don \ 't you come baby \"

Am7 D7 F G
Hey now, I know I \ 'd love to beat them
Am7 D7
Oh, I, I know, I know

F G
We could be that happy
Am7 D7 F G
infant
Am7 D7 F G
Sweet baby



Dm7 Dm9 Dm Gmaj
You ... have come to be alone
C F
I never knew what time it was
C A7
what time it was
Dm7 Dm9 Dm
I see a world out there

e | ------------------
B | --3 - / - 5 - / - 6 - / - 8--
G | --2 - / - 4 - / - 5 - / - 7--
D | ------------------
A | ------------------
E | ------------------
Out the - ee - ee - ere ..


Cm7 Am7 Cm7 Am7 F G
Now too young to adapt and to know how
F G Cm7 Am7
to make it how I wanted it to be
Cm7 Am7 F G
Too old to walk around in small cities
F G
cause I know it wouldn \ 't work baby

Am7 D7 F G
Hey now, I know I \ 'd love to beat them
Am7 D7
Oh, I, I know, I know
F G
We could be like that sweet
Am7 D7 F G
infant
Am7 D7 F G
Sweet baby